  0
SECTION
  2
HEADER
  9
$ACADVER
  1
AC1015
  9
$ACADMAINTVER
 70
     6
  9
$DWGCODEPAGE
  3
ANSI_1254
  9
$INSBASE
 10
0.0
 20
0.0
 30
0.0
  9
$EXTMIN
 10
0.0
 20
0.0
 30
0.0
  9
$EXTMAX
 10
279.4
 20
215.9
 30
0.0
  9
$LIMMIN
 10
0.0
 20
0.0
  9
$LIMMAX
 10
279.4
 20
215.9
  9
$ORTHOMODE
 70
     0
  9
$REGENMODE
 70
     1
  9
$FILLMODE
 70
     1
  9
$QTEXTMODE
 70
     0
  9
$MIRRTEXT
 70
     1
  9
$LTSCALE
 40
1.0
  9
$ATTMODE
 70
     1
  9
$TEXTSIZE
 40
3.5
  9
$TRACEWID
 40
1.0
  9
$TEXTSTYLE
  7
Standard
  9
$CLAYER
  8
0
  9
$CELTYPE
  6
ByLayer
  9
$CECOLOR
 62
   256
  9
$CELTSCALE
 40
1.0
  9
$DISPSILH
 70
     0
  9
$DIMSCALE
 40
1.0
  9
$DIMASZ
 40
3.5
  9
$DIMEXO
 40
1.0
  9
$DIMDLI
 40
3.75
  9
$DIMRND
 40
0.0
  9
$DIMDLE
 40
0.0
  9
$DIMEXE
 40
1.0
  9
$DIMTP
 40
0.0
  9
$DIMTM
 40
0.0
  9
$DIMTXT
 40
3.5
  9
$DIMCEN
 40
2.5
  9
$DIMTSZ
 40
0.0
  9
$DIMTOL
 70
     0
  9
$DIMLIM
 70
     0
  9
$DIMTIH
 70
     1
  9
$DIMTOH
 70
     1
  9
$DIMSE1
 70
     0
  9
$DIMSE2
 70
     0
  9
$DIMTAD
 70
     1
  9
$DIMZIN
 70
     0
  9
$DIMBLK
  1

  9
$DIMASO
 70
     1
  9
$DIMSHO
 70
     1
  9
$DIMPOST
  1

  9
$DIMAPOST
  1

  9
$DIMALT
 70
     0
  9
$DIMALTD
 70
     3
  9
$DIMALTF
 40
0.0393700787
  9
$DIMLFAC
 40
1.0
  9
$DIMTOFL
 70
     1
  9
$DIMTVP
 40
0.0
  9
$DIMTIX
 70
     0
  9
$DIMSOXD
 70
     0
  9
$DIMSAH
 70
     0
  9
$DIMBLK1
  1

  9
$DIMBLK2
  1

  9
$DIMSTYLE
  2
ISO-25
  9
$DIMCLRD
 70
     0
  9
$DIMCLRE
 70
     0
  9
$DIMCLRT
 70
     0
  9
$DIMTFAC
 40
1.0
  9
$DIMGAP
 40
1.524
  9
$DIMJUST
 70
     0
  9
$DIMSD1
 70
     0
  9
$DIMSD2
 70
     0
  9
$DIMTOLJ
 70
     0
  9
$DIMTZIN
 70
     0
  9
$DIMALTZ
 70
     0
  9
$DIMALTTZ
 70
     0
  9
$DIMUPT
 70
     0
  9
$DIMDEC
 70
     2
  9
$DIMTDEC
 70
     2
  9
$DIMALTU
 70
     2
  9
$DIMALTTD
 70
     3
  9
$DIMTXSTY
  7
Standard
  9
$DIMAUNIT
 70
     0
  9
$DIMADEC
 70
     2
  9
$DIMALTRND
 40
0.0
  9
$DIMAZIN
 70
     0
  9
$DIMDSEP
 70
    44
  9
$DIMATFIT
 70
     3
  9
$DIMFRAC
 70
     0
  9
$DIMLDRBLK
  1

  9
$DIMLUNIT
 70
     2
  9
$DIMLWD
 70
    -2
  9
$DIMLWE
 70
    -2
  9
$DIMTMOVE
 70
     0
  9
$LUNITS
 70
     2
  9
$LUPREC
 70
     2
  9
$SKETCHINC
 40
1.0
  9
$FILLETRAD
 40
10.0
  9
$AUNITS
 70
     0
  9
$AUPREC
 70
     2
  9
$MENU
  1
.
  9
$ELEVATION
 40
0.0
  9
$PELEVATION
 40
0.0
  9
$THICKNESS
 40
0.0
  9
$LIMCHECK
 70
     0
  9
$CHAMFERA
 40
0.0
  9
$CHAMFERB
 40
0.0
  9
$CHAMFERC
 40
0.0
  9
$CHAMFERD
 40
0.0
  9
$SKPOLY
 70
     0
  9
$TDCREATE
 40
2458985.682198206
  9
$TDUCREATE
 40
2458985.557198206
  9
$TDUPDATE
 40
2458985.682198576
  9
$TDUUPDATE
 40
2458985.557198576
  9
$TDINDWG
 40
0.0000000116
  9
$TDUSRTIMER
 40
0.0000000116
  9
$USRTIMER
 70
     1
  9
$ANGBASE
 50
0.0
  9
$ANGDIR
 70
     0
  9
$PDMODE
 70
     0
  9
$PDSIZE
 40
-1.0
  9
$PLINEWID
 40
0.0
  9
$SPLFRAME
 70
     0
  9
$SPLINETYPE
 70
     6
  9
$SPLINESEGS
 70
     8
  9
$HANDSEED
  5
CB
  9
$SURFTAB1
 70
     6
  9
$SURFTAB2
 70
     6
  9
$SURFTYPE
 70
     6
  9
$SURFU
 70
     6
  9
$SURFV
 70
     6
  9
$UCSBASE
  2

  9
$UCSNAME
  2

  9
$UCSORG
 10
0.0
 20
0.0
 30
0.0
  9
$UCSXDIR
 10
1.0
 20
0.0
 30
0.0
  9
$UCSYDIR
 10
0.0
 20
1.0
 30
0.0
  9
$UCSORTHOREF
  2

  9
$UCSORTHOVIEW
 70
     0
  9
$UCSORGTOP
 10
0.0
 20
0.0
 30
0.0
  9
$UCSORGBOTTOM
 10
0.0
 20
0.0
 30
0.0
  9
$UCSORGLEFT
 10
0.0
 20
0.0
 30
0.0
  9
$UCSORGRIGHT
 10
0.0
 20
0.0
 30
0.0
  9
$UCSORGFRONT
 10
0.0
 20
0.0
 30
0.0
  9
$UCSORGBACK
 10
0.0
 20
0.0
 30
0.0
  9
$PUCSBASE
  2

  9
$PUCSNAME
  2

  9
$PUCSORG
 10
0.0
 20
0.0
 30
0.0
  9
$PUCSXDIR
 10
1.0
 20
0.0
 30
0.0
  9
$PUCSYDIR
 10
0.0
 20
1.0
 30
0.0
  9
$PUCSORTHOREF
  2

  9
$PUCSORTHOVIEW
 70
     0
  9
$PUCSORGTOP
 10
0.0
 20
0.0
 30
0.0
  9
$PUCSORGBOTTOM
 10
0.0
 20
0.0
 30
0.0
  9
$PUCSORGLEFT
 10
0.0
 20
0.0
 30
0.0
  9
$PUCSORGRIGHT
 10
0.0
 20
0.0
 30
0.0
  9
$PUCSORGFRONT
 10
0.0
 20
0.0
 30
0.0
  9
$PUCSORGBACK
 10
0.0
 20
0.0
 30
0.0
  9
$USERI1
 70
     0
  9
$USERI2
 70
     0
  9
$USERI3
 70
     0
  9
$USERI4
 70
     0
  9
$USERI5
 70
     0
  9
$USERR1
 40
0.0
  9
$USERR2
 40
0.0
  9
$USERR3
 40
0.0
  9
$USERR4
 40
0.0
  9
$USERR5
 40
0.0
  9
$WORLDVIEW
 70
     1
  9
$SHADEDGE
 70
     3
  9
$SHADEDIF
 70
    70
  9
$TILEMODE
 70
     1
  9
$MAXACTVP
 70
    64
  9
$PINSBASE
 10
0.0
 20
0.0
 30
0.0
  9
$PLIMCHECK
 70
     0
  9
$PEXTMIN
 10
1.0000000000E+20
 20
1.0000000000E+20
 30
1.0000000000E+20
  9
$PEXTMAX
 10
-1.0000000000E+20
 20
-1.0000000000E+20
 30
-1.0000000000E+20
  9
$PLIMMIN
 10
0.0
 20
0.0
  9
$PLIMMAX
 10
420.0
 20
297.0
  9
$UNITMODE
 70
     0
  9
$VISRETAIN
 70
     1
  9
$PLINEGEN
 70
     0
  9
$PSLTSCALE
 70
     1
  9
$TREEDEPTH
 70
  3020
  9
$CMLSTYLE
  2
Standard
  9
$CMLJUST
 70
     0
  9
$CMLSCALE
 40
20.0
  9
$PROXYGRAPHICS
 70
     1
  9
$MEASUREMENT
 70
     1
  9
$CELWEIGHT
370
    -1
  9
$ENDCAPS
280
     0
  9
$JOINSTYLE
280
     0
  9
$LWDISPLAY
290
     1
  9
$INSUNITS
 70
     4
  9
$HYPERLINKBASE
  1

  9
$STYLESHEET
  1

  9
$XEDIT
290
     1
  9
$CEPSNTYPE
380
     0
  9
$PSTYLEMODE
290
     1
  9
$FINGERPRINTGUID
  2
{a0f78652-141c-4b63-9207-0d8a91e9dce1}
  9
$VERSIONGUID
  2
{FAEB1C32-E019-11D5-929B-00C0DF256EC4}
  9
$EXTNAMES
290
     1
  9
$PSVPSCALE
 40
0.0
  9
$OLESTARTUP
290
     0
  0
ENDSEC
  0
SECTION
  2
CLASSES
  0
CLASS
  1
ACDBDICTIONARYWDFLT
  2
AcDbDictionaryWithDefault
  3
ObjectDBX Classes
 90
        0
280
     0
281
     0
  0
CLASS
  1
VISUALSTYLE
  2
AcDbVisualStyle
  3
ObjectDBX Classes
 90
     4095
280
     0
281
     0
  0
CLASS
  1
MATERIAL
  2
AcDbMaterial
  3
ObjectDBX Classes
 90
     1153
280
     0
281
     0
  0
CLASS
  1
SCALE
  2
AcDbScale
  3
ObjectDBX Classes
 90
     1153
280
     0
281
     0
  0
CLASS
  1
TABLESTYLE
  2
AcDbTableStyle
  3
ObjectDBX Classes
 90
     4095
280
     0
281
     0
  0
CLASS
  1
MLEADERSTYLE
  2
AcDbMLeaderStyle
  3
ACDB_MLEADERSTYLE_CLASS
 90
     4095
280
     0
281
     0
  0
CLASS
  1
SUN
  2
AcDbSun
  3
SCENEOE
 90
     1153
280
     0
281
     0
  0
CLASS
  1
ACDBPLACEHOLDER
  2
AcDbPlaceHolder
  3
ObjectDBX Classes
 90
        0
280
     0
281
     0
  0
CLASS
  1
LAYOUT
  2
AcDbLayout
  3
ObjectDBX Classes
 90
        0
280
     0
281
     0
  0
ENDSEC
  0
SECTION
  2
TABLES
  0
TABLE
  2
VPORT
  5
8
330
0
100
AcDbSymbolTable
 70
     1
  0
VPORT
  5
29
330
8
100
AcDbSymbolTableRecord
100
AcDbViewportTableRecord
  2
*Active
 70
     0
 10
0.0
 20
0.0
 11
1.0
 21
1.0
 12
139.7
 22
107.95
 13
0.0
 23
0.0
 14
10.0
 24
10.0
 15
10.0
 25
10.0
 16
0.0
 26
0.0
 36
1.0
 17
0.0
 27
0.0
 37
0.0
 40
215.9
 41
1.2941176471
 42
50.0
 43
0.0
 44
0.0
 50
0.0
 51
0.0
 71
     0
 72
  2000
 73
     1
 74
     3
 75
     0
 76
     0
 77
     0
 78
     0
281
     0
 65
     1
110
0.0
120
0.0
130
0.0
111
1.0
121
0.0
131
0.0
112
0.0
122
1.0
132
0.0
 79
     0
146
0.0
  0
ENDTAB
  0
TABLE
  2
LTYPE
  5
5
330
0
100
AcDbSymbolTable
 70
     6
  0
LTYPE
  5
14
330
5
100
AcDbSymbolTableRecord
100
AcDbLinetypeTableRecord
  2
ByBlock
 70
     0
  3

 72
    65
 73
     0
 40
0.0
  0
LTYPE
  5
15
330
5
100
AcDbSymbolTableRecord
100
AcDbLinetypeTableRecord
  2
ByLayer
 70
     0
  3

 72
    65
 73
     0
 40
0.0
  0
LTYPE
  5
16
330
5
100
AcDbSymbolTableRecord
100
AcDbLinetypeTableRecord
  2
Continuous
 70
     0
  3
Solid line
 72
    65
 73
     0
 40
0.0
  0
LTYPE
  5
6E
330
5
100
AcDbSymbolTableRecord
100
AcDbLinetypeTableRecord
  2
HIDDEN
 70
     0
  3
Hidden __ __ __ __ __ __ __ __ __ __ __ __ __ __
 72
    65
 73
     2
 40
1.905
 49
1.27
 74
     0
 49
-0.635
 74
     0
  0
LTYPE
  5
6F
330
5
100
AcDbSymbolTableRecord
100
AcDbLinetypeTableRecord
  2
PHANTOM
 70
     0
  3
Phantom ______  __  __  ______  __  __  ______
 72
    65
 73
     6
 40
12.7
 49
6.35
 74
     0
 49
-1.27
 74
     0
 49
1.27
 74
     0
 49
-1.27
 74
     0
 49
1.27
 74
     0
 49
-1.27
 74
     0
  0
LTYPE
  5
70
330
5
100
AcDbSymbolTableRecord
100
AcDbLinetypeTableRecord
  2
CENTER
 70
     0
  3
Center ____ _ ____ _ ____ _ ____ _ ____ _ ____
 72
    65
 73
     4
 40
10.16
 49
6.35
 74
     0
 49
-1.27
 74
     0
 49
1.27
 74
     0
 49
-1.27
 74
     0
  0
LTYPE
  5
71
330
5
100
AcDbSymbolTableRecord
100
AcDbLinetypeTableRecord
  2
CENTERX2
 70
     0
  3
Center (2x) ________  __  ________  __  _____
 72
    65
 73
     4
 40
20.32
 49
12.7
 74
     0
 49
-2.54
 74
     0
 49
2.54
 74
     0
 49
-2.54
 74
     0
  0
LTYPE
  5
72
330
5
100
AcDbSymbolTableRecord
100
AcDbLinetypeTableRecord
  2
DOT2
 70
     0
  3
Dot (.5x) ........................................
 72
    65
 73
     2
 40
0.635
 49
0.0
 74
     0
 49
-0.635
 74
     0
  0
ENDTAB
  0
TABLE
  2
LAYER
  5
2
330
0
100
AcDbSymbolTable
 70
    17
  0
LAYER
  5
10
330
2
100
AcDbSymbolTableRecord
100
AcDbLayerTableRecord
  2
0
 70
     0
 62
     7
  6
Continuous
370
    -3
390
F
  0
LAYER
  5
73
330
2
100
AcDbSymbolTableRecord
100
AcDbLayerTableRecord
  2
FORMAT
 70
     0
 62
     7
  6
Continuous
370
    -3
390
F
  0
LAYER
  5
74
330
2
100
AcDbSymbolTableRecord
100
AcDbLayerTableRecord
  2
YARDIMCI_GEOMETRI
 70
     0
 62
    -6
  6
Continuous
290
     0
370
    -3
390
F
  0
LAYER
  5
75
330
2
100
AcDbSymbolTableRecord
100
AcDbLayerTableRecord
  2
SAYFA_CERCEVESI
 70
     0
 62
     7
  6
Continuous
370
    25
390
F
  0
LAYER
  5
76
330
2
100
AcDbSymbolTableRecord
100
AcDbLayerTableRecord
  2
ANTET
 70
     0
 62
     7
  6
Continuous
370
    -3
390
F
  0
LAYER
  5
77
330
2
100
AcDbSymbolTableRecord
100
AcDbLayerTableRecord
  2
OLCU
 70
     0
 62
   150
  6
Continuous
370
    -3
390
F
  0
LAYER
  5
78
330
2
100
AcDbSymbolTableRecord
100
AcDbLayerTableRecord
  2
METIN
 70
     0
 62
    96
  6
Continuous
370
    -3
390
F
  0
LAYER
  5
79
330
2
100
AcDbSymbolTableRecord
100
AcDbLayerTableRecord
  2
BALON
 70
     0
 62
     5
  6
Continuous
370
    -3
390
F
  0
LAYER
  5
7A
330
2
100
AcDbSymbolTableRecord
100
AcDbLayerTableRecord
  2
VURGU
 70
     0
 62
     7
  6
Continuous
370
    -3
390
F
  0
LAYER
  5
7B
330
2
100
AcDbSymbolTableRecord
100
AcDbLayerTableRecord
  2
SILIK
 70
     0
 62
     7
  6
Continuous
370
    -3
390
F
  0
LAYER
  5
7C
330
2
100
AcDbSymbolTableRecord
100
AcDbLayerTableRecord
  2
MODEL
 70
     0
 62
     7
  6
Continuous
370
    -3
390
F
  0
LAYER
  5
7D
330
2
100
AcDbSymbolTableRecord
100
AcDbLayerTableRecord
  2
DETAYLANDıRMA
 70
     0
 62
   190
  6
Continuous
370
    -3
390
F
  0
LAYER
  5
7E
330
2
100
AcDbSymbolTableRecord
100
AcDbLayerTableRecord
  2
TOLERANS
 70
     0
 62
   230
  6
Continuous
370
    -3
390
F
  0
LAYER
  5
7F
330
2
100
AcDbSymbolTableRecord
100
AcDbLayerTableRecord
  2
MERKEZ_CIZGILERI
 70
     0
 62
    30
  6
Continuous
370
    -3
390
F
  0
LAYER
  5
80
330
2
100
AcDbSymbolTableRecord
100
AcDbLayerTableRecord
  2
KESIT-DETAY_CIZGILERI
 70
     0
 62
     7
  6
Continuous
370
    -3
390
F
  0
LAYER
  5
81
330
2
100
AcDbSymbolTableRecord
100
AcDbLayerTableRecord
  2
\U+041E\U+0421\U+0415\U+0412\U+042B\U+0415
 70
     0
 62
     7
  6
Continuous
370
    -3
390
F
  0
LAYER
  5
82
330
2
100
AcDbSymbolTableRecord
100
AcDbLayerTableRecord
  2
\U+0412\U+041E\U+0414\U+042F\U+041D\U+042B\U+0415_\U+0417\U+041D\U+0410\U+041A\U+0418
 70
     0
 62
    11
  6
Continuous
370
    -3
390
F
  0
ENDTAB
  0
TABLE
  2
STYLE
  5
3
330
0
100
AcDbSymbolTable
 70
     1
  0
STYLE
  5
11
330
3
100
AcDbSymbolTableRecord
100
AcDbTextStyleTableRecord
  2
Standard
 70
     0
 40
0.0
 41
1.0
 50
0.0
 71
     0
 42
3.5
  3
txt
  4

  0
ENDTAB
  0
TABLE
  2
VIEW
  5
6
330
0
100
AcDbSymbolTable
 70
     0
  0
ENDTAB
  0
TABLE
  2
UCS
  5
7
330
0
100
AcDbSymbolTable
 70
     0
  0
ENDTAB
  0
TABLE
  2
APPID
  5
9
330
0
100
AcDbSymbolTable
 70
     1
  0
APPID
  5
12
330
9
100
AcDbSymbolTableRecord
100
AcDbRegAppTableRecord
  2
ACAD
 70
     0
  0
ENDTAB
  0
TABLE
  2
DIMSTYLE
  5
A
330
0
100
AcDbSymbolTable
 70
     1
100
AcDbDimStyleTable
  0
DIMSTYLE
105
27
330
A
100
AcDbSymbolTableRecord
100
AcDbDimStyleTableRecord
  2
ISO-25
 70
     0
 41
2.5
 42
0.625
 43
3.75
 44
1.25
 73
     0
 74
     0
 77
     1
 78
     8
140
2.5
141
2.5
143
0.0393700787
147
0.625
171
     3
172
     1
178
     0
271
     2
272
     2
274
     3
278
    44
283
     0
284
     8
340
11
  0
ENDTAB
  0
TABLE
  2
BLOCK_RECORD
  5
1
330
0
100
AcDbSymbolTable
 70
     3
  0
BLOCK_RECORD
  5
1F
330
1
100
AcDbSymbolTableRecord
100
AcDbBlockTableRecord
  2
*Model_Space
340
22
  0
BLOCK_RECORD
  5
1B
330
1
100
AcDbSymbolTableRecord
100
AcDbBlockTableRecord
  2
*Paper_Space
340
1E
  0
BLOCK_RECORD
  5
23
330
1
100
AcDbSymbolTableRecord
100
AcDbBlockTableRecord
  2
*Paper_Space0
340
26
  0
BLOCK_RECORD
  5
88
330
1
100
AcDbSymbolTableRecord
100
AcDbBlockTableRecord
  2
SW_CENTERMARKSYMBOL_0
340
0
102
{BLKREFS
331
93
102
}
  0
BLOCK_RECORD
  5
B2
330
1
100
AcDbSymbolTableRecord
100
AcDbBlockTableRecord
  2
SW_CENTERMARKSYMBOL_1
340
0
102
{BLKREFS
331
BD
102
}
  0
ENDTAB
  0
ENDSEC
  0
SECTION
  2
BLOCKS
  0
BLOCK
  5
20
330
1F
100
AcDbEntity
  8
0
100
AcDbBlockBegin
  2
*Model_Space
 70
     0
 10
0.0
 20
0.0
 30
0.0
  3
*Model_Space
  1

  0
ENDBLK
  5
21
330
1F
100
AcDbEntity
  8
0
100
AcDbBlockEnd
  0
BLOCK
  5
1C
330
1B
100
AcDbEntity
 67
     1
  8
0
100
AcDbBlockBegin
  2
*Paper_Space
 70
     0
 10
0.0
 20
0.0
 30
0.0
  3
*Paper_Space
  1

  0
ENDBLK
  5
1D
330
1B
100
AcDbEntity
 67
     1
  8
0
100
AcDbBlockEnd
  0
BLOCK
  5
24
330
23
100
AcDbEntity
  8
0
100
AcDbBlockBegin
  2
*Paper_Space0
 70
     0
 10
0.0
 20
0.0
 30
0.0
  3
*Paper_Space0
  1

  0
ENDBLK
  5
25
330
23
100
AcDbEntity
  8
0
100
AcDbBlockEnd
  0
BLOCK
  5
89
330
88
100
AcDbEntity
  8
0
100
AcDbBlockBegin
  2
SW_CENTERMARKSYMBOL_0
 70
     0
 10
0.0
 20
0.0
 30
0.0
  3
SW_CENTERMARKSYMBOL_0
  1

  0
LINE
  5
8B
330
88
100
AcDbEntity
  8
FORMAT
 62
     0
100
AcDbLine
 10
0.0
 20
0.0
 30
0.0
 11
0.0
 21
2.5
 31
0.0
  0
LINE
  5
8C
330
88
100
AcDbEntity
  8
FORMAT
 62
     0
100
AcDbLine
 10
0.0
 20
0.0
 30
0.0
 11
-2.5
 21
0.0
 31
0.0
  0
LINE
  5
8D
330
88
100
AcDbEntity
  8
FORMAT
 62
     0
100
AcDbLine
 10
0.0
 20
0.0
 30
0.0
 11
0.0
 21
-2.5
 31
0.0
  0
LINE
  5
8E
330
88
100
AcDbEntity
  8
FORMAT
 62
     0
100
AcDbLine
 10
0.0
 20
0.0
 30
0.0
 11
2.5
 21
0.0
 31
0.0
  0
LINE
  5
8F
330
88
100
AcDbEntity
  8
FORMAT
 62
     0
100
AcDbLine
 10
0.0
 20
5.0
 30
0.0
 11
0.0
 21
47.5
 31
0.0
  0
LINE
  5
90
330
88
100
AcDbEntity
  8
FORMAT
 62
     0
100
AcDbLine
 10
-5.0
 20
0.0
 30
0.0
 11
-47.5
 21
0.0
 31
0.0
  0
LINE
  5
91
330
88
100
AcDbEntity
  8
FORMAT
 62
     0
100
AcDbLine
 10
0.0
 20
-5.0
 30
0.0
 11
0.0
 21
-47.5
 31
0.0
  0
LINE
  5
92
330
88
100
AcDbEntity
  8
FORMAT
 62
     0
100
AcDbLine
 10
5.0
 20
0.0
 30
0.0
 11
47.5
 21
0.0
 31
0.0
  0
ENDBLK
  5
8A
330
88
100
AcDbEntity
  8
0
100
AcDbBlockEnd
  0
BLOCK
  5
B3
330
B2
100
AcDbEntity
  8
0
100
AcDbBlockBegin
  2
SW_CENTERMARKSYMBOL_1
 70
     0
 10
0.0
 20
0.0
 30
0.0
  3
SW_CENTERMARKSYMBOL_1
  1

  0
LINE
  5
B5
330
B2
100
AcDbEntity
  8
FORMAT
 62
     0
100
AcDbLine
 10
0.0
 20
0.0
 30
0.0
 11
0.0
 21
2.5
 31
0.0
  0
LINE
  5
B6
330
B2
100
AcDbEntity
  8
FORMAT
 62
     0
100
AcDbLine
 10
0.0
 20
0.0
 30
0.0
 11
-2.5
 21
0.0
 31
0.0
  0
LINE
  5
B7
330
B2
100
AcDbEntity
  8
FORMAT
 62
     0
100
AcDbLine
 10
0.0
 20
0.0
 30
0.0
 11
0.0
 21
-2.5
 31
0.0
  0
LINE
  5
B8
330
B2
100
AcDbEntity
  8
FORMAT
 62
     0
100
AcDbLine
 10
0.0
 20
0.0
 30
0.0
 11
2.5
 21
0.0
 31
0.0
  0
LINE
  5
B9
330
B2
100
AcDbEntity
  8
FORMAT
 62
     0
100
AcDbLine
 10
0.0
 20
5.0
 30
0.0
 11
0.0
 21
34.0
 31
0.0
  0
LINE
  5
BA
330
B2
100
AcDbEntity
  8
FORMAT
 62
     0
100
AcDbLine
 10
-5.0
 20
0.0
 30
0.0
 11
-34.0
 21
0.0
 31
0.0
  0
LINE
  5
BB
330
B2
100
AcDbEntity
  8
FORMAT
 62
     0
100
AcDbLine
 10
0.0
 20
-5.0
 30
0.0
 11
0.0
 21
-34.0
 31
0.0
  0
LINE
  5
BC
330
B2
100
AcDbEntity
  8
FORMAT
 62
     0
100
AcDbLine
 10
5.0
 20
0.0
 30
0.0
 11
34.0
 21
0.0
 31
0.0
  0
ENDBLK
  5
B4
330
B2
100
AcDbEntity
  8
0
100
AcDbBlockEnd
  0
ENDSEC
  0
SECTION
  2
ENTITIES
  0
LINE
  5
83
330
1F
100
AcDbEntity
  8
0
  6
Continuous
 62
     7
370
    25
100
AcDbLine
 10
150.7320872426
 20
83.5029005303
 30
0.0
 11
250.5275510204
 21
83.5029005303
 31
0.0
  0
LINE
  5
84
330
1F
100
AcDbEntity
  8
0
  6
Continuous
 62
     7
370
    25
100
AcDbLine
 10
250.5275510204
 20
146.5029005303
 30
0.0
 11
150.6746643332
 21
146.5029005303
 31
0.0
  0
CIRCLE
  5
85
330
1F
100
AcDbEntity
  8
0
  6
Continuous
 62
     7
370
    25
100
AcDbCircle
 10
118.5275510204
 20
115.0029005303
 30
0.0
 40
36.8
  0
CIRCLE
  5
86
330
1F
100
AcDbEntity
  8
0
  6
Continuous
 62
     7
370
    25
100
AcDbCircle
 10
118.5275510204
 20
115.0029005303
 30
0.0
 40
45.00000000000001
  0
LINE
  5
87
330
1F
100
AcDbEntity
  8
0
  6
Continuous
 62
     7
370
    25
100
AcDbLine
 10
250.5275510204
 20
146.5029005303
 30
0.0
 11
250.5275510204
 21
83.5029005303
 31
0.0
  0
INSERT
  5
93
330
1F
100
AcDbEntity
  8
FORMAT
100
AcDbBlockReference
  2
SW_CENTERMARKSYMBOL_0
 10
118.5275510204
 20
115.0029005303
 30
0.0
  0
LINE
  5
94
330
1F
100
AcDbEntity
  8
0
  6
Continuous
 62
     7
370
    25
100
AcDbLine
 10
73.5275510204
 20
5.8238155553
 30
0.0
 11
73.5275510204
 21
-284.1761844447
 31
0.0
  0
LINE
  5
95
330
1F
100
AcDbEntity
  8
0
  6
Continuous
 62
     7
370
    25
100
AcDbLine
 10
163.5275510204
 20
-107.6784257514
 30
0.0
 11
163.5275510204
 21
5.8238155553
 31
0.0
  0
LINE
  5
96
330
1F
100
AcDbEntity
  8
0
  6
Continuous
 62
     7
370
    25
100
AcDbLine
 10
163.5275510204
 20
-284.1761844447
 30
0.0
 11
163.5275510204
 21
-170.6761844447
 31
0.0
  0
LINE
  5
97
330
1F
100
AcDbEntity
  8
0
  6
Continuous
 62
     7
370
    25
100
AcDbLine
 10
163.5275510204
 20
-170.6761844447
 30
0.0
 11
250.5275510204
 21
-170.6761844447
 31
0.0
  0
LINE
  5
98
330
1F
100
AcDbEntity
  8
0
  6
Continuous
 62
     7
370
    25
100
AcDbLine
 10
250.5275510204
 20
-107.6761844447
 30
0.0
 11
163.5259910231
 21
-107.6761844447
 31
0.0
  0
LWPOLYLINE
  5
99
330
1F
100
AcDbEntity
  8
0
  6
Continuous
 62
     7
370
    25
100
AcDbPolyline
 90
       28
 70
   128
 43
0.0
 10
163.5259865851
 20
-107.6784257514
 10
163.2811755004
 20
-108.0291636547
 10
162.6446956416
 20
-108.9508234125
 10
161.6352907716
 20
-110.4441948433
 10
160.2692133771
 20
-112.5375587989
 10
158.6419886355
 20
-115.1674755004
 10
156.6213718409
 20
-118.7216205358
 10
154.5522687645
 20
-122.8964335701
 10
152.8922142408
 20
-127.0032604636
 10
152.1610098328
 20
-129.2539500803
 10
151.5464939007
 20
-131.5932701679
 10
150.8888273711
 20
-135.3680081037
 10
150.6644906329
 20
-139.3575339819
 10
150.9195455162
 20
-143.2371335229
 10
151.6291634324
 20
-147.1113431875
 10
153.0049544775
 20
-151.6638323073
 10
154.7749796482
 20
-155.9429993518
 10
156.702869701
 20
-159.7821291298
 10
158.6595250631
 20
-163.2141822932
 10
159.720497992
 20
-164.9466131309
 10
160.7000668532
 20
-166.4849942259
 10
161.6013919337
 20
-167.8574145915
 10
162.358110694
 20
-168.9816866432
 10
162.8498060462
 20
-169.7002178073
 10
163.2148494763
 20
-170.2278292207
 10
163.4484183043
 20
-170.5631335166
 10
163.5275510204
 20
-170.6761844447
 10
163.5275510204
 20
-170.6761844447
  0
LINE
  5
9A
330
1F
100
AcDbEntity
  8
0
  6
Continuous
 62
     7
370
    25
100
AcDbLine
 10
163.5275510204
 20
-284.1761844447
 30
0.0
 11
73.5275510204
 21
-284.1761844447
 31
0.0
  0
LINE
  5
9B
330
1F
100
AcDbEntity
  8
0
  6
Continuous
 62
     7
370
    25
100
AcDbLine
 10
163.5275510204
 20
5.8238155553
 30
0.0
 11
73.5275510204
 21
5.8238155553
 31
0.0
  0
LINE
  5
9C
330
1F
100
AcDbEntity
  8
0
  6
Continuous
 62
     7
370
    25
100
AcDbLine
 10
250.5275510204
 20
-107.6761844447
 30
0.0
 11
250.5275510204
 21
-170.6761844447
 31
0.0
  0
LINE
  5
9D
330
1F
100
AcDbEntity
  8
0
  6
Continuous
 62
     7
370
    25
100
AcDbLine
 10
163.5275510204
 20
400.2485517818
 30
0.0
 11
163.5275510204
 21
513.7485517818
 31
0.0
  0
LINE
  5
9E
330
1F
100
AcDbEntity
  8
0
  6
Continuous
 62
     7
370
    25
100
AcDbLine
 10
163.5275510204
 20
223.7485517818
 30
0.0
 11
163.5275510204
 21
337.2507930885
 31
0.0
  0
LINE
  5
9F
330
1F
100
AcDbEntity
  8
0
  6
Continuous
 62
     7
370
    25
100
AcDbLine
 10
73.5275510204
 20
513.7485517818
 30
0.0
 11
73.5275510204
 21
223.7485517818
 31
0.0
  0
LINE
  5
A0
330
1F
100
AcDbEntity
  8
0
  6
Continuous
 62
     7
370
    25
100
AcDbLine
 10
163.5259910231
 20
337.2485517818
 30
0.0
 11
250.5275510204
 21
337.2485517818
 31
0.0
  0
LINE
  5
A1
330
1F
100
AcDbEntity
  8
0
  6
Continuous
 62
     7
370
    25
100
AcDbLine
 10
250.5275510204
 20
400.2485517818
 30
0.0
 11
163.5275510204
 21
400.2485517818
 31
0.0
  0
SPLINE
  5
A2
330
1F
100
AcDbEntity
  8
0
  6
Continuous
 62
     7
370
    25
100
AcDbSpline
210
0.0
220
0.0
230
1.0
 70
     8
 71
     3
 72
    35
 73
    31
 74
     0
 42
0.000000001
 43
0.00000001
 40
0.0
 40
0.0
 40
0.0
 40
0.0
 40
0.044885875787821
 40
0.0912353937289975
 40
0.1360877110698775
 40
0.1820530476260881
 40
0.2309958072802681
 40
0.2809737423765548
 40
0.3095490499640346
 40
0.3383151627906718
 40
0.3677332147875933
 40
0.3974152157114039
 40
0.4368665422262587
 40
0.4773459524226997
 40
0.5168491416314527
 40
0.5576811776927382
 40
0.5948505732299764
 40
0.6327688038985427
 40
0.6610448529301705
 40
0.6895317135584579
 40
0.7186265464255677
 40
0.7479179702743184
 40
0.7765000417430806
 40
0.8052798809074124
 40
0.8347334626504257
 40
0.8644490258548122
 40
0.9091123614725289
 40
0.9550071876164268
 40
0.9997085642399969
 40
1.0
 40
1.0
 40
1.0
 40
1.0
 10
163.527551020408
 20
400.2485517817717
 30
0.0
 10
163.4813693124056
 20
400.1827552922803
 30
0.0
 10
163.3874999996492
 20
400.049016816215
 30
0.0
 10
162.6489189474854
 20
398.98544346758
 30
0.0
 10
161.5346885392771
 20
397.3410123253873
 30
0.0
 10
160.0673288909421
 20
395.0938232820551
 30
0.0
 10
158.3082219520986
 20
392.2412561499302
 30
0.0
 10
156.648415012354
 20
389.3045072762899
 30
0.0
 10
155.2601234186178
 20
386.5763561185591
 30
0.0
 10
154.1729818111852
 20
384.2228126313879
 30
0.0
 10
153.1441533308442
 20
381.6919790121871
 30
0.0
 10
152.1202521987141
 20
378.6927044066711
 30
0.0
 10
151.2200536257676
 20
375.1599414382414
 30
0.0
 10
150.6637496487172
 20
371.1206315317902
 30
0.0
 10
150.6247466771536
 20
366.9548927463155
 30
0.0
 10
151.105692636371
 20
362.9615991790283
 30
0.0
 10
151.9966240768069
 20
359.1927120458378
 30
0.0
 10
153.0555818042361
 20
356.0245707898425
 30
0.0
 10
154.163652369908
 20
353.2981033620969
 30
0.0
 10
155.2381501697151
 20
350.9655341547141
 30
0.0
 10
156.3618355621242
 20
348.7537306165565
 30
0.0
 10
157.4917451066062
 20
346.6955068023331
 30
0.0
 10
158.5935121980642
 20
344.8065943716197
 30
0.0
 10
159.6468999364205
 20
343.0853902357451
 30
0.0
 10
160.636586662587
 20
341.5302930181301
 30
0.0
 10
161.6769161487746
 20
339.9458594585259
 30
0.0
 10
162.6693249201852
 20
338.4824778626879
 30
0.0
 10
163.3259669620678
 20
337.536069854156
 30
0.0
 10
163.6069768806528
 20
337.1347606550419
 30
0.0
 10
163.5265078142088
 20
337.2500463387247
 30
0.0
 10
163.5259865850992
 20
337.2507930884623
 30
0.0
  0
LINE
  5
A3
330
1F
100
AcDbEntity
  8
0
  6
Continuous
 62
     7
370
    25
100
AcDbLine
 10
73.5275510204
 20
513.7485517818
 30
0.0
 11
163.5275510204
 21
513.7485517818
 31
0.0
  0
LINE
  5
A4
330
1F
100
AcDbEntity
  8
0
  6
Continuous
 62
     7
370
    25
100
AcDbLine
 10
73.5275510204
 20
223.7485517818
 30
0.0
 11
163.5275510204
 21
223.7485517818
 31
0.0
  0
LINE
  5
A5
330
1F
100
AcDbEntity
  8
0
  6
Continuous
 62
     7
370
    25
100
AcDbLine
 10
250.5275510204
 20
400.2485517818
 30
0.0
 11
250.5275510204
 21
337.2485517818
 31
0.0
  0
LINE
  5
A6
330
1F
100
AcDbEntity
  8
0
  6
Continuous
 62
     7
370
    25
100
AcDbLine
 10
322.6812452785
 20
70.0029005303
 30
0.0
 11
612.6812452785
 21
70.0029005303
 31
0.0
  0
LINE
  5
A7
330
1F
100
AcDbEntity
  8
0
  6
Continuous
 62
     7
370
    25
100
AcDbLine
 10
612.6812452785
 20
160.0029005303
 30
0.0
 11
322.6812452785
 21
160.0029005303
 31
0.0
  0
LINE
  5
A8
330
1F
100
AcDbEntity
  8
0
  6
Continuous
 62
     7
370
    25
100
AcDbLine
 10
612.6812452785
 20
160.0029005303
 30
0.0
 11
612.6812452785
 21
70.0029005303
 31
0.0
  0
LINE
  5
A9
330
1F
100
AcDbEntity
  8
0
  6
Continuous
 62
     7
370
    25
100
AcDbLine
 10
322.6812452785
 20
160.0029005303
 30
0.0
 11
322.6812452785
 21
70.0029005303
 31
0.0
  0
LINE
  5
AA
330
1F
100
AcDbEntity
  8
0
  6
Continuous
 62
     7
370
    25
100
AcDbLine
 10
-27.2675689067
 20
160.0029005303
 30
0.0
 11
-317.2675689067
 21
160.0029005303
 31
0.0
  0
LINE
  5
AB
330
1F
100
AcDbEntity
  8
0
  6
Continuous
 62
     7
370
    25
100
AcDbLine
 10
-317.2675689067
 20
70.0029005303
 30
0.0
 11
-27.2675689067
 21
70.0029005303
 31
0.0
  0
CIRCLE
  5
AC
330
1F
100
AcDbEntity
  8
0
  6
Continuous
 62
     7
370
    25
100
AcDbCircle
 10
-172.2675689067
 20
115.0029005303
 30
0.0
 40
25.69999999999999
  0
CIRCLE
  5
AD
330
1F
100
AcDbEntity
  8
0
  6
Continuous
 62
     7
370
    25
100
AcDbCircle
 10
-172.2675689067
 20
115.0029005303
 30
0.0
 40
31.5
  0
LINE
  5
AE
330
1F
100
AcDbEntity
  8
0
  6
Continuous
 62
     7
370
    25
100
AcDbLine
 10
-317.2675689067
 20
115.0029005303
 30
0.0
 11
-317.2675689067
 21
160.0029005303
 31
0.0
  0
LINE
  5
AF
330
1F
100
AcDbEntity
  8
0
  6
Continuous
 62
     7
370
    25
100
AcDbLine
 10
-317.2675689067
 20
70.0029005303
 30
0.0
 11
-317.2675689067
 21
115.0029005303
 31
0.0
  0
LINE
  5
B0
330
1F
100
AcDbEntity
  8
0
  6
Continuous
 62
     7
370
    25
100
AcDbLine
 10
-27.2675689067
 20
115.0029005303
 30
0.0
 11
-27.2675689067
 21
160.0029005303
 31
0.0
  0
LINE
  5
B1
330
1F
100
AcDbEntity
  8
0
  6
Continuous
 62
     7
370
    25
100
AcDbLine
 10
-27.2675689067
 20
70.0029005303
 30
0.0
 11
-27.2675689067
 21
115.0029005303
 31
0.0
  0
INSERT
  5
BD
330
1F
100
AcDbEntity
  8
FORMAT
100
AcDbBlockReference
  2
SW_CENTERMARKSYMBOL_1
 10
-172.2675689067
 20
115.0029005303
 30
0.0
  0
LINE
  5
BE
330
1F
100
AcDbEntity
  8
0
  6
Continuous
 62
     7
370
    25
100
AcDbLine
 10
592.1977332154
 20
-187.8966010966
 30
0.0
 11
543.6752959176
 21
-159.8851942842
 31
0.0
  0
LINE
  5
BF
330
1F
100
AcDbEntity
  8
0
  6
Continuous
 62
     7
370
    25
100
AcDbLine
 10
480.6701756576
 20
-123.5131125596
 30
0.0
 11
387.1367666713
 21
-69.5174248823
 31
0.0
  0
LINE
  5
C0
330
1F
100
AcDbEntity
  8
0
  6
Continuous
 62
     7
370
    25
100
AcDbLine
 10
342.1404237027
 20
-147.4618224966
 30
0.0
 11
547.2013902467
 21
-265.8409987109
 31
0.0
  0
LINE
  5
C1
330
1F
100
AcDbEntity
  8
0
  6
Continuous
 62
     7
370
    25
100
AcDbLine
 10
510.5640717083
 20
-178.9998971523
 30
0.0
 11
576.2558936147
 21
-141.0768155813
 31
0.0
  0
LINE
  5
C2
330
1F
100
AcDbEntity
  8
0
  6
Continuous
 62
     7
370
    25
100
AcDbLine
 10
544.7584535366
 20
-86.5157372513
 30
0.0
 11
479.0590614178
 21
-124.443189013
 31
0.0
  0
SPLINE
  5
C3
330
1F
100
AcDbEntity
  8
0
  6
Continuous
 62
     7
370
    25
100
AcDbSpline
210
0.0
220
0.0
230
1.0
 70
     8
 71
     3
 72
    28
 73
    24
 74
     0
 42
0.000000001
 43
0.00000001
 40
0.0
 40
0.0
 40
0.0
 40
0.0
 40
0.0597443811191131
 40
0.1214369116972103
 40
0.1811366255661336
 40
0.2423177997614173
 40
0.3074620090361281
 40
0.3739840663544132
 40
0.4120186159123277
 40
0.4503071326866031
 40
0.4894633990941943
 40
0.5289709890530644
 40
0.5814818300601499
 40
0.6353610797752525
 40
0.6879409515073875
 40
0.7422895563078474
 40
0.7917630820877846
 40
0.8422333287893081
 40
0.8798695566725273
 40
0.9177863808046578
 40
0.9565124333300972
 40
0.995500154060191
 40
1.0
 40
1.0
 40
1.0
 40
1.0
 10
476.7150200050298
 20
-136.4516015193631
 30
0.0
 10
476.7288897500318
 20
-137.7558096511927
 30
0.0
 10
476.7570815057673
 20
-140.4067536357661
 30
0.0
 10
476.9868857624393
 20
-144.8357222747503
 30
0.0
 10
477.3617942968154
 20
-149.4562912529207
 30
0.0
 10
477.9132169502423
 20
-154.2345301100278
 30
0.0
 10
478.6864100676451
 20
-159.1306175535488
 30
0.0
 10
479.589344369024
 20
-163.2982874361097
 30
0.0
 10
480.5367681508748
 20
-166.6519520238312
 30
0.0
 10
481.4322495132299
 20
-169.2543719788708
 30
0.0
 10
482.4943275111826
 20
-171.7535892611357
 30
0.0
 10
483.8911275782446
 20
-174.3665763165875
 30
0.0
 10
485.7526312699657
 20
-176.9718455823288
 30
0.0
 10
488.2154901557342
 20
-179.3144268676359
 30
0.0
 10
491.1335264761305
 20
-181.0628947011263
 30
0.0
 10
494.297315960779
 20
-182.0952661885882
 30
0.0
 10
497.5922209707309
 20
-182.489763291335
 30
0.0
 10
500.5815187224474
 20
-182.357631136151
 30
0.0
 10
503.292123871772
 20
-181.8899866736804
 30
0.0
 10
505.7041863380957
 20
-181.2260121312157
 30
0.0
 10
508.0516068134004
 20
-180.3027986328198
 30
0.0
 10
509.6822767734893
 20
-179.5439789722618
 30
0.0
 10
510.4755969494043
 20
-179.0413196418116
 30
0.0
 10
510.5576852069438
 20
-178.9893073146008
 30
0.0
  0
SPLINE
  5
C4
330
1F
100
AcDbEntity
  8
0
  6
Continuous
 62
     7
370
    25
100
AcDbSpline
210
0.0
220
0.0
230
1.0
 70
     8
 71
     3
 72
    16
 73
    12
 74
     0
 42
0.000000001
 43
0.00000001
 40
0.0
 40
0.0
 40
0.0
 40
0.0
 40
0.1096645539557869
 40
0.2274064481593517
 40
0.3460880091335014
 40
0.4680639548499018
 40
0.5913511124443337
 40
0.6911187413448896
 40
0.791757205514886
 40
0.8953338791512291
 40
1.0
 40
1.0
 40
1.0
 40
1.0
 10
479.1063897879737
 20
-124.5245995329321
 30
0.0
 10
478.9119722635691
 20
-124.6151492575248
 30
0.0
 10
478.5088173963856
 20
-124.8029181446322
 30
0.0
 10
478.0660692123478
 20
-125.5196429038682
 30
0.0
 10
477.6623122781714
 20
-126.4592065111769
 30
0.0
 10
477.3349004469592
 20
-127.7035781540139
 30
0.0
 10
477.0911284295314
 20
-129.1509348148386
 30
0.0
 10
476.9183905642413
 20
-130.7400478908038
 30
0.0
 10
476.8028410095995
 20
-132.425912310691
 30
0.0
 10
476.7289246167967
 20
-134.3159740799665
 30
0.0
 10
476.7196710127327
 20
-135.7372471858622
 30
0.0
 10
476.7150200050298
 20
-136.4516015193631
 30
0.0
  0
LWPOLYLINE
  5
C5
330
1F
100
AcDbEntity
  8
0
  6
Continuous
 62
     7
370
    25
100
AcDbPolyline
 90
       87
 70
   128
 43
0.0
 10
396.4584003404
 20
-90.1204411734
 10
396.3735141263
 20
-87.4872805343
 10
396.1193083889
 20
-84.9661764831
 10
395.6971394257
 20
-82.5705802007
 10
395.1092596908
 20
-80.3132732298
 10
394.358805777
 20
-78.2062992797
 10
393.4497816805
 20
-76.2608999682
 10
392.3870374382
 20
-74.4874548421
 10
391.1762432506
 20
-72.8954259987
 10
389.8238592284
 20
-71.4933076006
 10
388.3371009255
 20
-70.2885805562
 10
386.7239008409
 20
-69.2876726054
 10
384.9928660948
 20
-68.4959240253
 10
383.1532325068
 20
-67.917559137
 10
381.2148153178
 20
-67.5556637676
 10
379.1879568224
 20
-67.4121687854
 10
377.0834711875
 20
-67.4878397982
 10
374.9125867546
 20
-67.7822730685
 10
372.6868861315
 20
-68.2938976672
 10
370.4182443938
 20
-69.0199838559
 10
368.1187657269
 20
-69.9566576506
 10
365.8007188445
 20
-71.0989214912
 10
363.4764715295
 20
-72.440680906
 10
361.158424647
 20
-73.9747770279
 10
358.8589459801
 20
-75.6930247905
 10
356.5903042425
 20
-77.5862565983
 10
354.3646036193
 20
-79.6443712406
 10
352.1937191864
 20
-81.8563877854
 10
350.0892335515
 20
-84.2105041671
 10
348.0623750561
 20
-86.6941601564
 10
346.1239578671
 20
-89.294104374
 10
344.2843242791
 20
-91.9964649924
 10
342.553289533
 20
-94.7868237487
 10
340.9400894484
 20
-97.6502928715
 10
339.4533311455
 20
-100.5715945141
 10
338.1009471233
 20
-103.5351422683
 10
336.8901529357
 20
-106.5251243245
 10
335.8274086934
 20
-109.5255878348
 10
334.918384597
 20
-112.5205240281
 10
334.1679306831
 20
-115.4939536241
 10
333.5800509482
 20
-118.4300120893
 10
333.157881985
 20
-121.3130342815
 10
332.9036762476
 20
-124.1276380298
 10
332.8187900336
 20
-126.8588062054
 10
332.9036762476
 20
-129.4919668445
 10
333.157881985
 20
-132.0130708957
 10
333.5800509482
 20
-134.4086671781
 10
334.1679306831
 20
-136.6659741491
 10
334.918384597
 20
-138.7729480991
 10
335.8274086934
 20
-140.7183474107
 10
336.8901529357
 20
-142.4917925367
 10
338.1009471233
 20
-144.0838213802
 10
339.4533311455
 20
-145.4859397782
 10
340.9400894484
 20
-146.6906668227
 10
342.553289533
 20
-147.6915747735
 10
344.2843242791
 20
-148.4833233536
 10
346.1239578671
 20
-149.0616882418
 10
348.0623750561
 20
-149.4235836112
 10
350.0892335515
 20
-149.5670785934
 10
352.1937191864
 20
-149.4914075806
 10
354.3646036193
 20
-149.1969743104
 10
356.5903042425
 20
-148.6853497116
 10
358.8589459801
 20
-147.959263523
 10
361.158424647
 20
-147.0225897283
 10
363.4764715295
 20
-145.8803258877
 10
365.8007188445
 20
-144.5385664729
 10
368.1187657269
 20
-143.0044703509
 10
370.4182443938
 20
-141.2862225884
 10
372.6868861315
 20
-139.3929907806
 10
374.9125867546
 20
-137.3348761382
 10
377.0834711875
 20
-135.1228595935
 10
379.1879568224
 20
-132.7687432118
 10
381.2148153178
 20
-130.2850872225
 10
383.1532325068
 20
-127.6851430049
 10
384.9928660948
 20
-124.9827823864
 10
386.7239008409
 20
-122.1924236302
 10
388.3371009255
 20
-119.3289545074
 10
389.8238592284
 20
-116.4076528648
 10
391.1762432506
 20
-113.4441051106
 10
392.3870374382
 20
-110.4541230544
 10
393.4497816805
 20
-107.4536595441
 10
394.358805777
 20
-104.4587233507
 10
395.1092596908
 20
-101.4852937547
 10
395.6971394257
 20
-98.5492352895
 10
396.1193083889
 20
-95.6662130974
 10
396.3735141263
 20
-92.8516093491
 10
396.4584003404
 20
-90.1204411734
  0
LWPOLYLINE
  5
C6
330
1F
100
AcDbEntity
  8
0
  6
Continuous
 62
     7
370
    25
100
AcDbPolyline
 90
       12
 70
   128
 43
0.0
 10
601.5193668845
 20
-208.4996173877
 10
601.4344806704
 20
-205.8664567486
 10
601.180274933
 20
-203.3453526974
 10
600.7581059698
 20
-200.949756415
 10
600.1702262349
 20
-198.6924494441
 10
599.4197723211
 20
-196.585475494
 10
598.5107482246
 20
-194.6400761824
 10
597.4480039823
 20
-192.8666310564
 10
596.2372097947
 20
-191.274602213
 10
594.8848257725
 20
-189.8724838149
 10
593.3980674696
 20
-188.6677567705
 10
592.1977332154
 20
-187.8966010966
  0
LWPOLYLINE
  5
C7
330
1F
100
AcDbEntity
  8
0
  6
Continuous
 62
     7
370
    25
100
AcDbPolyline
 90
       34
 70
   128
 43
0.0
 10
547.2013902467
 20
-265.8409987109
 10
547.6142560771
 20
-266.0707509878
 10
549.3452908232
 20
-266.8624995679
 10
551.1849244112
 20
-267.4408644561
 10
553.1233416002
 20
-267.8027598255
 10
555.1502000956
 20
-267.9462548077
 10
557.2546857305
 20
-267.8705837949
 10
559.4255701634
 20
-267.5761505247
 10
561.6512707866
 20
-267.0645259259
 10
563.9199125242
 20
-266.3384397373
 10
566.2193911911
 20
-265.4017659426
 10
568.5374380736
 20
-264.259502102
 10
570.8616853886
 20
-262.9177426872
 10
573.179732271
 20
-261.3836465652
 10
575.4792109379
 20
-259.6653988027
 10
577.7478526756
 20
-257.7721669949
 10
579.9735532987
 20
-255.7140523525
 10
582.1444377316
 20
-253.5020358078
 10
584.2489233665
 20
-251.1479194261
 10
586.2757818619
 20
-248.6642634368
 10
588.2141990509
 20
-246.0643192192
 10
590.0538326389
 20
-243.3619586007
 10
591.784867385
 20
-240.5715998444
 10
593.3980674696
 20
-237.7081307217
 10
594.8848257725
 20
-234.7868290791
 10
596.2372097947
 20
-231.8232813249
 10
597.4480039823
 20
-228.8332992687
 10
598.5107482246
 20
-225.8328357584
 10
599.4197723211
 20
-222.837899565
 10
600.1702262349
 20
-219.864469969
 10
600.7581059698
 20
-216.9284115038
 10
601.180274933
 20
-214.0453893117
 10
601.4344806704
 20
-211.2307855634
 10
601.5193668845
 20
-208.4996173877
  0
LWPOLYLINE
  5
C8
330
1F
100
AcDbEntity
  8
0
  6
Continuous
 62
     7
370
    25
100
AcDbPolyline
 90
       78
 70
   128
 43
0.0
 10
390.6601247346
 20
-93.4677144319
 10
390.5735402417
 20
-91.0684504342
 10
390.3143629684
 20
-88.7851214702
 10
389.8843176967
 20
-86.6329227175
 10
389.2862663069
 20
-84.6261767036
 10
388.5241887324
 20
-82.7782379922
 10
387.6031564738
 20
-81.1014043106
 10
386.5292988486
 20
-79.6068347102
 10
385.3097622023
 20
-78.3044753051
 10
383.95266235
 20
-77.2029930823
 10
382.4670305673
 20
-76.3097182243
 10
380.8627534887
 20
-75.6305953279
 10
379.1505073134
 20
-75.1701438438
 10
377.3416867571
 20
-74.9314280008
 10
375.4483292223
 20
-74.9160364134
 10
373.483034691
 20
-75.12407151
 10
371.4588818741
 20
-75.5541488515
 10
369.3893411744
 20
-76.203406344
 10
367.2881850441
 20
-77.0675232861
 10
365.1693963304
 20
-78.1407491222
 10
363.0470752227
 20
-79.4159417112
 10
360.9353454178
 20
-80.884614857
 10
358.848260129
 20
-82.5369947821
 10
356.7997085648
 20
-84.3620851707
 10
354.8033234977
 20
-86.3477403474
 10
352.872390541
 20
-88.4807461045
 10
351.0197597349
 20
-90.7469076407
 10
349.2577600318
 20
-93.1311440249
 10
347.598117249
 20
-95.6175885573
 10
346.0518760354
 20
-98.1896943598
 10
344.6293263712
 20
-100.8303444926
 10
343.3399350896
 20
-103.5219658647
 10
342.1922828769
 20
-106.2466461801
 10
341.1940071693
 20
-108.9862531407
 10
340.3517513269
 20
-111.7225551143
 10
339.6711204233
 20
-114.4373424626
 10
339.1566439449
 20
-117.1125487238
 10
338.8117456478
 20
-119.7303708416
 10
338.6387207732
 20
-122.2733876417
 10
338.6387207732
 20
-124.7246757668
 10
338.8117456478
 20
-127.067922299
 10
339.1566439449
 20
-129.2875333191
 10
339.6711204233
 20
-131.368737682
 10
340.3517513269
 20
-133.2976853161
 10
341.1940071693
 20
-135.0615393931
 10
342.1922828769
 20
-136.6485617552
 10
343.3399350896
 20
-138.0481910303
 10
344.6293263712
 20
-139.2511129166
 10
346.0518760354
 20
-140.2493221674
 10
347.598117249
 20
-141.0361758648
 10
349.2577600318
 20
-141.6064376273
 10
351.0197597349
 20
-141.9563124569
 10
352.872390541
 20
-142.0834719944
 10
354.8033234977
 20
-141.987070014
 10
356.7997085648
 20
-141.667748055
 10
358.848260129
 20
-141.1276311523
 10
360.9353454178
 20
-140.3703136949
 10
363.0470752227
 20
-139.4008355054
 10
365.1693963304
 20
-138.2256483013
 10
367.2881850441
 20
-136.8525727595
 10
369.3893411744
 20
-135.2907464712
 10
371.4588818741
 20
-133.5505631327
 10
373.483034691
 20
-131.6436033769
 10
375.4483292223
 20
-129.5825577065
 10
377.3416867571
 20
-127.3811420402
 10
379.1505073134
 20
-125.0540064362
 10
380.8627534887
 20
-122.616637598
 10
382.4670305673
 20
-120.0852558129
 10
383.95266235
 20
-117.4767070093
 10
385.3097622023
 20
-114.8083506489
 10
386.5292988486
 20
-112.0979442031
 10
387.6031564738
 20
-109.3635249797
 10
388.5241887324
 20
-106.6232900873
 10
389.2862663069
 20
-103.8954753371
 10
389.8843176967
 20
-101.1982338863
 10
390.3143629684
 20
-98.5495154315
 10
390.5735402417
 20
-95.9669467573
 10
390.6601247346
 20
-93.4677144319
  0
LWPOLYLINE
  5
C9
330
1F
100
AcDbEntity
  8
0
  6
Continuous
 62
     7
370
    25
100
AcDbPolyline
 90
       66
 70
   128
 43
0.0
 10
578.6798178521
 20
-124.2871206532
 10
578.5949813105
 20
-122.2127913879
 10
578.3412637815
 20
-120.05987939
 10
577.9210341575
 20
-117.8484858188
 10
577.3382160091
 20
-115.5992578602
 10
576.5982509523
 20
-113.3331959496
 10
575.7080478416
 20
-111.0714576966
 10
574.6759182635
 20
-108.8351603419
 10
573.5114989339
 20
-106.6451835912
 10
572.2256617222
 20
-104.5219746674
 10
570.830412144
 20
-102.4853574003
 10
569.3387772688
 20
-100.5543471364
 10
567.7646840894
 20
-98.7469731984
 10
566.1228294898
 20
-97.0801105497
 10
564.428543024
 20
-95.5693222378
 10
562.6976437882
 20
-94.2287140861
 10
560.9462927222
 20
-93.0708029917
 10
559.1908417191
 20
-92.1064000584
 10
557.4476809518
 20
-91.3445096567
 10
555.7330858428
 20
-90.7922453519
 10
554.0630651047
 20
-90.4547634871
 10
552.4532112711
 20
-90.3352150395
 10
550.9185551135
 20
-90.4347162007
 10
549.473425303
 20
-90.7523379552
 10
548.1313146273
 20
-91.2851147542
 10
546.904754012
 20
-92.0280722044
 10
545.8051955232
 20
-92.9742735123
 10
544.8429054423
 20
-94.114884251
 10
544.0268684124
 20
-95.4392548455
 10
543.3647035515
 20
-96.9350200044
 10
542.8625933144
 20
-98.5882141714
 10
542.5252257691
 20
-100.383401918
 10
542.3557508255
 20
-102.3038220599
 10
542.3557508255
 20
-104.3315441516
 10
542.5252257691
 20
-106.4476358984
 10
542.8625933144
 20
-108.6323399217
 10
543.3647035515
 20
-110.8652582287
 10
544.0268684124
 20
-113.1255426628
 10
544.8429054423
 20
-115.3920895572
 10
545.8051955232
 20
-117.6437367743
 10
546.904754012
 20
-119.8594612907
 10
548.1313146273
 20
-122.0185754835
 10
549.473425303
 20
-124.1009202853
 10
550.9185551135
 20
-126.0870534038
 10
552.4532112711
 20
-127.9584308491
 10
554.0630651047
 20
-129.6975800742
 10
555.7330858428
 20
-131.2882631115
 10
557.4476809518
 20
-132.7156281819
 10
559.1908417191
 20
-133.9663483625
 10
560.9462927222
 20
-135.0287460158
 10
562.6976437882
 20
-135.8929018212
 10
564.428543024
 20
-136.5507473889
 10
566.1228294898
 20
-136.9961405919
 10
567.7646840894
 20
-137.224922914
 10
569.3387772688
 20
-137.2349582763
 10
570.830412144
 20
-137.0261529812
 10
572.2256617222
 20
-136.6004565876
 10
573.5114989339
 20
-135.961843708
 10
574.6759182635
 20
-135.1162768987
 10
575.7080478416
 20
-134.0716509893
 10
576.5982509523
 20
-132.8377193705
 10
577.3382160091
 20
-131.4260029292
 10
577.9210341575
 20
-129.8496824815
 10
578.3412637815
 20
-128.1234757067
 10
578.5949813105
 20
-126.2634997325
 10
578.6798178521
 20
-124.2871206532
  0
LWPOLYLINE
  5
CA
330
1F
100
AcDbEntity
  8
0
  6
Continuous
 62
     7
370
    25
100
AcDbPolyline
 90
       72
 70
   128
 43
0.0
 10
582.781037183
 20
-126.6547041775
 10
582.6938755916
 20
-124.3311590474
 10
582.4330729751
 20
-121.925164177
 10
582.0006704676
 20
-119.4555497383
 10
581.400052205
 20
-116.9416438128
 10
580.6359188394
 20
-114.4031211227
 10
579.7142507506
 20
-111.85984905
 10
578.642261241
 20
-109.331732147
 10
577.4283400819
 20
-106.8385563561
 10
576.0819878524
 20
-104.3998341583
 10
574.613741584
 20
-102.0346518614
 10
573.0350922946
 20
-99.7615202236
 10
571.3583950552
 20
-97.598229582
 10
569.5967722952
 20
-95.561710619
 10
567.764011101
 20
-93.6679018567
 10
565.8744553139
 20
-91.9316249165
 10
563.9428932701
 20
-90.3664685193
 10
561.9844420613
 20
-88.9846821363
 10
560.0144292237
 20
-87.7970801194
 10
558.0482727787
 20
-86.8129570645
 10
556.1013605663
 20
-86.0400150688
 10
554.1889298144
 20
-85.4843034515
 10
552.3259478865
 20
-85.1501714095
 10
550.5269951421
 20
-85.0402339789
 10
548.8061508256
 20
-85.1553515693
 10
547.1768828769
 20
-85.4946232295
 10
545.6519425269
 20
-86.0553936986
 10
544.2432645012
 20
-86.8332741875
 10
542.9618736155
 20
-87.8221767266
 10
541.8177984908
 20
-89.0143618127
 10
540.8199930661
 20
-90.4004989812
 10
539.9762665217
 20
-91.9697398293
 10
539.2932221619
 20
-93.7098029197
 10
538.7762057349
 20
-95.6070698995
 10
538.4292635951
 20
-97.646692082
 10
538.2551110353
 20
-99.8127066585
 10
538.2551110353
 20
-102.0881616279
 10
538.4292635951
 20
-104.4552484699
 10
538.7762057349
 20
-106.8954415207
 10
539.2932221619
 20
-109.389642961
 10
539.9762665217
 20
-111.9183322829
 10
540.8199930661
 20
-114.4617190638
 10
541.8177984908
 20
-116.9998978538
 10
542.9618736155
 20
-119.5130039623
 10
544.2432645012
 20
-121.9813689268
 10
545.6519425269
 20
-124.3856744447
 10
547.1768828769
 20
-126.7071035653
 10
548.8061508256
 20
-128.9274879584
 10
550.5269951421
 20
-131.0294501055
 10
552.3259478865
 20
-132.9965393028
 10
554.1889298144
 20
-134.8133604104
 10
556.1013605663
 20
-136.4656943397
 10
558.0482727787
 20
-137.9406093375
 10
560.0144292237
 20
-139.226562194
 10
561.9844420613
 20
-140.3134885847
 10
563.9428932701
 20
-141.1928818368
 10
565.8744553139
 20
-141.8578595058
 10
567.764011101
 20
-142.3032172398
 10
569.5967722952
 20
-142.5254695107
 10
571.3583950552
 20
-142.5228768932
 10
573.0350922946
 20
-142.2954596779
 10
574.613741584
 20
-141.8449977131
 10
576.0819878524
 20
-141.1750164742
 10
577.4283400819
 20
-140.2907594729
 10
578.642261241
 20
-139.1991472192
 10
579.7142507506
 20
-137.9087230589
 10
580.6359188394
 20
-136.4295863108
 10
581.400052205
 20
-134.7733132254
 10
582.0006704676
 20
-132.9528663852
 10
582.4330729751
 20
-130.9824932551
 10
582.6938755916
 20
-128.8776146762
 10
582.781037183
 20
-126.6547041775
  0
ENDSEC
  0
SECTION
  2
OBJECTS
  0
DICTIONARY
  5
C
330
0
100
AcDbDictionary
281
     1
  3
ACAD_GROUP
350
D
  3
ACAD_LAYOUT
350
1A
  3
ACAD_MLINESTYLE
350
17
  3
ACAD_PLOTSETTINGS
350
19
  3
ACAD_PLOTSTYLENAME
350
E
  3
ACAD_SCALELIST
350
47
  0
DICTIONARY
  5
D
102
{ACAD_REACTORS
330
C
102
}
330
C
100
AcDbDictionary
281
     1
  0
DICTIONARY
  5
1A
102
{ACAD_REACTORS
330
C
102
}
330
C
100
AcDbDictionary
281
     1
  3
Layout1
350
1E
  3
Layout2
350
26
  3
Model
350
22
  0
DICTIONARY
  5
17
102
{ACAD_REACTORS
330
C
102
}
330
C
100
AcDbDictionary
281
     1
  3
Standard
350
18
  0
DICTIONARY
  5
19
102
{ACAD_REACTORS
330
C
102
}
330
C
100
AcDbDictionary
281
     1
  0
ACDBDICTIONARYWDFLT
  5
E
102
{ACAD_REACTORS
330
C
102
}
330
C
100
AcDbDictionary
281
     1
  3
Normal
350
F
100
AcDbDictionaryWithDefault
340
F
  0
DICTIONARY
  5
47
102
{ACAD_REACTORS
330
C
102
}
330
C
100
AcDbDictionary
281
     1
  3
A0
350
48
  3
A1
350
49
  3
A2
350
4A
  3
A3
350
4B
  3
A4
350
4C
  3
A5
350
4D
  3
A6
350
4E
  3
A7
350
4F
  3
A8
350
50
  3
A9
350
51
  3
B0
350
52
  3
B1
350
53
  3
B2
350
54
  3
B3
350
55
  3
B4
350
56
  3
B5
350
57
  3
B6
350
58
  3
B7
350
59
  3
B8
350
5A
  3
B9
350
5B
  3
C0
350
5C
  3
C1
350
5D
  3
C2
350
5E
  3
C3
350
5F
  3
C4
350
60
  3
C5
350
61
  3
C6
350
62
  3
C7
350
63
  3
C8
350
64
  3
C9
350
65
  3
D0
350
66
  3
D1
350
67
  3
D2
350
68
  0
LAYOUT
  5
1E
102
{ACAD_REACTORS
330
1A
102
}
330
1A
100
AcDbPlotSettings
  1

  2
none_device
  4

  6

 40
0.0
 41
0.0
 42
0.0
 43
0.0
 44
0.0
 45
0.0
 46
0.0
 47
0.0
 48
0.0
 49
0.0
140
0.0
141
0.0
142
1.0
143
1.0
 70
   688
 72
     1
 73
     0
 74
     5
  7

 75
    16
147
1.0
148
0.0
149
0.0
100
AcDbLayout
  1
Layout1
 70
     1
 71
     1
 10
0.0
 20
0.0
 11
420.0
 21
297.0
 12
0.0
 22
0.0
 32
0.0
 14
1.0000000000E+20
 24
1.0000000000E+20
 34
1.0000000000E+20
 15
-1.0000000000E+20
 25
-1.0000000000E+20
 35
-1.0000000000E+20
146
0.0
 13
0.0
 23
0.0
 33
0.0
 16
1.0
 26
0.0
 36
0.0
 17
0.0
 27
1.0
 37
0.0
 76
     0
330
1B
  0
LAYOUT
  5
26
102
{ACAD_REACTORS
330
1A
102
}
330
1A
100
AcDbPlotSettings
  1

  2
none_device
  4

  6

 40
0.0
 41
0.0
 42
0.0
 43
0.0
 44
0.0
 45
0.0
 46
0.0
 47
0.0
 48
0.0
 49
0.0
140
0.0
141
0.0
142
1.0
143
1.0
 70
   688
 72
     1
 73
     0
 74
     5
  7

 75
    16
147
1.0
148
0.0
149
0.0
100
AcDbLayout
  1
Layout2
 70
     1
 71
     2
 10
0.0
 20
0.0
 11
0.0
 21
0.0
 12
0.0
 22
0.0
 32
0.0
 14
0.0
 24
0.0
 34
0.0
 15
0.0
 25
0.0
 35
0.0
146
0.0
 13
0.0
 23
0.0
 33
0.0
 16
1.0
 26
0.0
 36
0.0
 17
0.0
 27
1.0
 37
0.0
 76
     0
330
23
  0
LAYOUT
  5
22
102
{ACAD_REACTORS
330
1A
102
}
330
1A
100
AcDbPlotSettings
  1

  2
none_device
  4
Letter_(8.50_x_11.00_Inches)
  6

 40
6.35
 41
6.35
 42
6.35000508
 43
6.35000508
 44
215.9
 45
279.4
 46
0.0
 47
0.0
 48
0.0
 49
0.0
140
0.0
141
0.0
142
1.0
143
1.0
 70
  1712
 72
     1
 73
     0
 74
     0
  7

 75
     0
147
1.0
148
0.0
149
0.0
100
AcDbLayout
  1
Model
 70
     1
 71
     0
 10
0.0
 20
0.0
 11
279.4
 21
215.9
 12
0.0
 22
0.0
 32
0.0
 14
0.0
 24
0.0
 34
0.0
 15
279.4
 25
215.9
 35
0.0
146
0.0
 13
0.0
 23
0.0
 33
0.0
 16
1.0
 26
0.0
 36
0.0
 17
0.0
 27
1.0
 37
0.0
 76
     0
330
1F
331
29
  0
MLINESTYLE
  5
18
102
{ACAD_REACTORS
330
17
102
}
330
17
100
AcDbMlineStyle
  2
Standard
 70
     0
  3

 62
   256
 51
90.0
 52
90.0
 71
     2
 49
0.5
 62
   256
  6
BYLAYER
 49
-0.5
 62
   256
  6
BYLAYER
  0
ACDBPLACEHOLDER
  5
F
102
{ACAD_REACTORS
330
E
102
}
330
E
  0
SCALE
  5
48
102
{ACAD_REACTORS
330
47
102
}
330
47
100
AcDbScale
 70
     0
300
1:1
140
1.0
141
1.0
290
     1
  0
SCALE
  5
49
102
{ACAD_REACTORS
330
47
102
}
330
47
100
AcDbScale
 70
     0
300
1:2
140
1.0
141
2.0
290
     0
  0
SCALE
  5
4A
102
{ACAD_REACTORS
330
47
102
}
330
47
100
AcDbScale
 70
     0
300
1:4
140
1.0
141
4.0
290
     0
  0
SCALE
  5
4B
102
{ACAD_REACTORS
330
47
102
}
330
47
100
AcDbScale
 70
     0
300
1:5
140
1.0
141
5.0
290
     0
  0
SCALE
  5
4C
102
{ACAD_REACTORS
330
47
102
}
330
47
100
AcDbScale
 70
     0
300
1:8
140
1.0
141
8.0
290
     0
  0
SCALE
  5
4D
102
{ACAD_REACTORS
330
47
102
}
330
47
100
AcDbScale
 70
     0
300
1:10
140
1.0
141
10.0
290
     0
  0
SCALE
  5
4E
102
{ACAD_REACTORS
330
47
102
}
330
47
100
AcDbScale
 70
     0
300
1:16
140
1.0
141
16.0
290
     0
  0
SCALE
  5
4F
102
{ACAD_REACTORS
330
47
102
}
330
47
100
AcDbScale
 70
     0
300
1:20
140
1.0
141
20.0
290
     0
  0
SCALE
  5
50
102
{ACAD_REACTORS
330
47
102
}
330
47
100
AcDbScale
 70
     0
300
1:30
140
1.0
141
30.0
290
     0
  0
SCALE
  5
51
102
{ACAD_REACTORS
330
47
102
}
330
47
100
AcDbScale
 70
     0
300
1:40
140
1.0
141
40.0
290
     0
  0
SCALE
  5
52
102
{ACAD_REACTORS
330
47
102
}
330
47
100
AcDbScale
 70
     0
300
1:50
140
1.0
141
50.0
290
     0
  0
SCALE
  5
53
102
{ACAD_REACTORS
330
47
102
}
330
47
100
AcDbScale
 70
     0
300
1:100
140
1.0
141
100.0
290
     0
  0
SCALE
  5
54
102
{ACAD_REACTORS
330
47
102
}
330
47
100
AcDbScale
 70
     0
300
2:1
140
2.0
141
1.0
290
     0
  0
SCALE
  5
55
102
{ACAD_REACTORS
330
47
102
}
330
47
100
AcDbScale
 70
     0
300
4:1
140
4.0
141
1.0
290
     0
  0
SCALE
  5
56
102
{ACAD_REACTORS
330
47
102
}
330
47
100
AcDbScale
 70
     0
300
8:1
140
8.0
141
1.0
290
     0
  0
SCALE
  5
57
102
{ACAD_REACTORS
330
47
102
}
330
47
100
AcDbScale
 70
     0
300
10:1
140
10.0
141
1.0
290
     0
  0
SCALE
  5
58
102
{ACAD_REACTORS
330
47
102
}
330
47
100
AcDbScale
 70
     0
300
100:1
140
100.0
141
1.0
290
     0
  0
SCALE
  5
59
102
{ACAD_REACTORS
330
47
102
}
330
47
100
AcDbScale
 70
     0
300
1/128" = 1'-0"
140
0.0078125
141
12.0
290
     0
  0
SCALE
  5
5A
102
{ACAD_REACTORS
330
47
102
}
330
47
100
AcDbScale
 70
     0
300
1/64" = 1'-0"
140
0.015625
141
12.0
290
     0
  0
SCALE
  5
5B
102
{ACAD_REACTORS
330
47
102
}
330
47
100
AcDbScale
 70
     0
300
1/32" = 1'-0"
140
0.03125
141
12.0
290
     0
  0
SCALE
  5
5C
102
{ACAD_REACTORS
330
47
102
}
330
47
100
AcDbScale
 70
     0
300
1/16" = 1'-0"
140
0.0625
141
12.0
290
     0
  0
SCALE
  5
5D
102
{ACAD_REACTORS
330
47
102
}
330
47
100
AcDbScale
 70
     0
300
3/32" = 1'-0"
140
0.09375
141
12.0
290
     0
  0
SCALE
  5
5E
102
{ACAD_REACTORS
330
47
102
}
330
47
100
AcDbScale
 70
     0
300
1/8" = 1'-0"
140
0.125
141
12.0
290
     0
  0
SCALE
  5
5F
102
{ACAD_REACTORS
330
47
102
}
330
47
100
AcDbScale
 70
     0
300
3/16" = 1'-0"
140
0.1875
141
12.0
290
     0
  0
SCALE
  5
60
102
{ACAD_REACTORS
330
47
102
}
330
47
100
AcDbScale
 70
     0
300
1/4" = 1'-0"
140
0.25
141
12.0
290
     0
  0
SCALE
  5
61
102
{ACAD_REACTORS
330
47
102
}
330
47
100
AcDbScale
 70
     0
300
3/8" = 1'-0"
140
0.375
141
12.0
290
     0
  0
SCALE
  5
62
102
{ACAD_REACTORS
330
47
102
}
330
47
100
AcDbScale
 70
     0
300
1/2" = 1'-0"
140
0.5
141
12.0
290
     0
  0
SCALE
  5
63
102
{ACAD_REACTORS
330
47
102
}
330
47
100
AcDbScale
 70
     0
300
3/4" = 1'-0"
140
0.75
141
12.0
290
     0
  0
SCALE
  5
64
102
{ACAD_REACTORS
330
47
102
}
330
47
100
AcDbScale
 70
     0
300
1" = 1'-0"
140
1.0
141
12.0
290
     0
  0
SCALE
  5
65
102
{ACAD_REACTORS
330
47
102
}
330
47
100
AcDbScale
 70
     0
300
1-1/2" = 1'-0"
140
1.5
141
12.0
290
     0
  0
SCALE
  5
66
102
{ACAD_REACTORS
330
47
102
}
330
47
100
AcDbScale
 70
     0
300
3" = 1'-0"
140
3.0
141
12.0
290
     0
  0
SCALE
  5
67
102
{ACAD_REACTORS
330
47
102
}
330
47
100
AcDbScale
 70
     0
300
6" = 1'-0"
140
6.0
141
12.0
290
     0
  0
SCALE
  5
68
102
{ACAD_REACTORS
330
47
102
}
330
47
100
AcDbScale
 70
     0
300
1'-0" = 1'-0"
140
12.0
141
12.0
290
     0
  0
ENDSEC
  0
EOF
